0
SECTION
2
HEADER
9
$INSUNITS
70
4
9
$ACADVER
1
AC1014
9
$HANDSEED
5
FFFF
0
ENDSEC
0
SECTION
2
TABLES
0
TABLE
2
VPORT
5
8
100
AcDbSymbolTable
0
ENDTAB
0
TABLE
2
LTYPE
5
5
100
AcDbSymbolTable
0
LTYPE
5
14
100
AcDbSymbolTableRecord
100
AcDbLinetypeTableRecord
2
BYBLOCK
70
0
0
LTYPE
5
15
100
AcDbSymbolTableRecord
100
AcDbLinetypeTableRecord
2
BYLAYER
70
0
0
ENDTAB
0
TABLE
2
LAYER
5
2
100
AcDbSymbolTable
70
2
0
LAYER
5
50
100
AcDbSymbolTableRecord
100
AcDbLayerTableRecord
2
0
70
0
6
CONTINUOUS
0
ENDTAB
0
TABLE
2
STYLE
5
3
100
AcDbSymbolTable
70
1
0
STYLE
5
11
100
AcDbSymbolTableRecord
100
AcDbTextStyleTableRecord
2
STANDARD
70
0
0
ENDTAB
0
TABLE
2
VIEW
5
6
100
AcDbSymbolTable
70
0
0
ENDTAB
0
TABLE
2
UCS
5
7
100
AcDbSymbolTable
70
0
0
ENDTAB
0
TABLE
2
APPID
5
9
100
AcDbSymbolTable
70
2
0
APPID
5
12
100
AcDbSymbolTableRecord
100
AcDbRegAppTableRecord
2
ACAD
70
0
0
ENDTAB
0
TABLE
2
DIMSTYLE
5
A
100
AcDbSymbolTable
70
1
0
ENDTAB
0
TABLE
2
BLOCK_RECORD
5
1
100
AcDbSymbolTable
70
1
0
BLOCK_RECORD
5
1F
100
AcDbSymbolTableRecord
100
AcDbBlockTableRecord
2
*MODEL_SPACE
0
BLOCK_RECORD
5
1B
100
AcDbSymbolTableRecord
100
AcDbBlockTableRecord
2
*PAPER_SPACE
0
ENDTAB
0
ENDSEC
0
SECTION
2
BLOCKS
0
BLOCK
5
20
100
AcDbEntity
100
AcDbBlockBegin
2
*MODEL_SPACE
0
ENDBLK
5
21
100
AcDbEntity
100
AcDbBlockEnd
0
BLOCK
5
1C
100
AcDbEntity
100
AcDbBlockBegin
2
*PAPER_SPACE
0
ENDBLK
5
1D
100
AcDbEntity
100
AcDbBlockEnd
0
ENDSEC
0
SECTION
2
ENTITIES
0
LWPOLYLINE
5
100
100
AcDbEntity
8
0
100
AcDbPolyline
90
8
70
1
43
0.0
10
8.116996941708253
20
-39.658691810515442
10
-36.935894766827651
20
5.3941998980205064
42
-0.26307183831507841
10
-37.251945078478492
20
6.5321361140302496
42
-0.013614964884445394
10
-36.692874799035948
20
8.5459123535315111
42
-0.56533548485163587
10
-34.697246931495805
20
9.042073907455805
10
11.764870951143564
20
-37.420043975183603
42
-0.56533548485162755
10
11.268709397219492
20
-39.415671842724244
42
-0.013614964884452499
10
9.2549331577179181
20
-39.974742122166298
42
-0.26307183831508041
0
LWPOLYLINE
5
101
100
AcDbEntity
8
0
100
AcDbPolyline
90
8
70
1
43
0.0
10
34.693232938813402
20
-14.491681987513807
10
-11.768884943825988
20
31.970435895125608
42
-0.56533548485163077
10
-11.272723389901529
20
33.966063762665264
42
-0.013614964884447947
10
-9.2589471504003278
20
34.525134042108313
42
-0.26307183831508052
10
-8.1210109343906627
20
34.209083730457451
10
36.931880774145228
20
-10.843807978078503
42
-0.26307183831508174
10
37.247931085796061
20
-11.98174419408825
42
-0.0136149648844535
10
36.688860806353532
20
-13.995520433589519
42
-0.5653354848516271
0
LWPOLYLINE
5
102
100
AcDbEntity
8
0
100
AcDbPolyline
90
8
70
1
43
0.0
10
36.330444156520926
20
-3.1930817501946267
10
-0.47028470650680809
20
33.607647112833142
42
-0.6718830942755597
10
0.39051520698745124
20
35.656112500078912
42
-0.017578466632982691
10
3.0857556895682956
20
35.533718536442777
42
-0.1780631280126356
10
3.8377483140487865
20
35.186135937044675
10
37.908932980732466
20
1.114951270360959
42
-0.17806312801263821
10
38.256515580130326
20
0.36295864588044874
42
-0.01757846663298902
10
38.378909543767477
20
-2.3322818367004028
42
-0.67188309427555837
0
LWPOLYLINE
5
103
100
AcDbEntity
8
0
100
AcDbPolyline
90
8
70
1
43
0.0
10
17.376484196697213
20
-35.982367610477695
10
-33.259570566789904
20
14.653687153009455
42
-0.33631200159056179
10
-33.456975311964122
20
16.090453681818754
42
-0.012227268209774281
10
-32.497149332211322
20
17.703474221009962
42
-0.48150513824267399
10
-30.632696218468709
20
17.91333464945539
10
20.636131693143156
20
-33.355493262156529
42
-0.48150513824266394
10
20.426271264697981
20
-35.21994637589944
42
-0.012227268209779945
10
18.813250725506691
20
-36.179772355651984
42
-0.33631200159056107
0
LWPOLYLINE
5
104
100
AcDbEntity
8
0
100
AcDbPolyline
90
8
70
1
43
0.0
10
-3.8417623067312134
20
-40.635744017102667
10
-37.91294697341489
20
-6.5645593504189588
42
-0.17806312801263707
10
-38.260529572813255
20
-5.8125667259385398
42
-0.017578466632979135
10
-38.382923536449908
20
-3.1173262433576387
42
-0.6718830942755647
10
-36.334458149203343
20
-2.2565263298633846
10
0.46627071382437757
20
-39.057255192891134
42
-0.67188309427556048
10
-0.39452919966993738
20
-41.105720580138481
42
-0.01757846663298469
10
-3.0897696822507226
20
-40.983326616500769
42
-0.17806312801263571
0
LWPOLYLINE
5
105
100
AcDbEntity
8
0
100
AcDbPolyline
90
8
70
1
43
0.0
10
30.628682225786299
20
-23.362942729513403
10
-20.64014568582558
20
27.905885182098523
42
-0.48150513824266483
10
-20.430285257379946
20
29.770338295840819
42
-0.012227268209774281
10
-18.817264718189129
20
30.730164275593985
42
-0.33631200159056207
10
-17.38049818937964
20
30.532759530419703
10
33.25555657410748
20
-20.103295233067438
42
-0.33631200159056313
10
33.452961319281862
20
-21.540061761877098
42
-0.012227268209779945
10
32.493135339528905
20
-23.153082301067975
42
-0.48150513824266428
0
LWPOLYLINE
5
106
100
AcDbEntity
8
0
100
AcDbPolyline
90
4
70
1
43
0.0
10
31.732637038653976
20
14.340536822699022
10
17.06333386638682
20
29.009839994966192
42
-0.86776734948868495
10
18.489994132440295
20
30.909920908922437
42
-0.14230762848299433
10
33.632717952615046
20
15.767197088755204
42
-0.86776734948869161
0
LWPOLYLINE
5
107
100
AcDbEntity
8
0
100
AcDbPolyline
90
8
70
1
43
0.0
10
-24.81528949258886
20
25.031739378602236
10
27.754536422290002
20
-27.538086536276669
42
-0.40728853842898105
10
27.774407409123768
20
-29.214795186022112
42
-0.011851186451881207
10
26.487984149651666
20
-30.501218445493837
42
-0.4072885384289841
10
24.811275499906436
20
-30.481347458660242
10
-27.758550414972415
20
22.088478456218674
42
-0.40728853842898183
10
-27.778421401805815
20
23.765187105963726
42
-0.011851186451875323
10
-26.491998142334072
20
25.051610365435838
42
-0.40728853842898038
0
LWPOLYLINE
5
108
100
AcDbEntity
8
0
100
AcDbPolyline
90
4
70
1
43
0.0
10
-31.736651031336429
20
-19.790144902756985
10
-17.067347859069219
20
-34.459448075024206
42
-0.86776734948868417
10
-18.494008125128055
20
-36.359528988990107
42
-0.14230762848295253
10
-33.63673194529747
20
-21.216805168813153
42
-0.86776734948869028
0
ARC
5
109
100
AcDbEntity
8
0
100
AcDbCircle
10
42.493524169889326
20
-50.657020184876842
30
0
40
3.3900000000000041
210
-8.9683101716788312e-44
220
-1.274070935154397e-59
230
1
100
AcDbArc
50
-90
51
0
0
LINE
5
110
100
AcDbEntity
8
0
100
AcDbLine
10
45.883524169889327
20
-50.657020184876842
30
3.0402571481991232e-43
11
45.883524169889299
21
47.759928608301188
31
-3.6747010556425671e-58
0
ARC
5
111
100
AcDbEntity
8
0
100
AcDbCircle
10
42.493524169889298
20
47.759928608301188
30
0
40
3.3900000000000041
210
1.0839826122839417e-58
220
-1.9913648889155653e-59
230
1
100
AcDbArc
50
0
51
90
0
LINE
5
112
100
AcDbEntity
8
0
100
AcDbLine
10
42.493524169889298
20
51.149928608301195
30
-1.2657613075169635e-59
11
24.484141928647389
21
51.149928608301181
31
-1.6151372593978182e-42
0
ARC
5
113
100
AcDbEntity
8
0
100
AcDbCircle
10
24.484141928647393
20
49.964928608301179
30
0
40
1.1850000000000005
210
-8.968310171679343e-44
220
1.3629850290276938e-42
230
1
100
AcDbArc
50
90.000000000000185
51
180
0
LINE
5
114
100
AcDbEntity
8
0
100
AcDbLine
10
23.299141928647387
20
49.964928608301179
30
-1.0627447553439475e-43
11
23.299141928647394
21
42.982572254013299
31
2.6070786160922797e-59
0
SPLINE
5
115
100
AcDbEntity
8
0
100
AcDbSpline
70
0
71
3
72
14
73
10
74
0
42
0.000000001
43
0.0000000001
44
0.0000000001
40
-1.5707963267948981
40
-1.5707963267948981
40
-1.5707963267948981
40
-1.5707963267948981
40
-0.88669869698103387
40
-0.88669869698103387
40
-0.88669869698103387
40
-0.11023249327515217
40
-0.11023249327515217
40
-0.11023249327515217
40
0
40
0
40
0
40
0
10
23.299141928647394
20
42.982572254013306
30
0
10
23.299141928647398
20
41.868301546058603
30
0
10
23.029894386885594
20
40.753900844212303
30
0
10
22.492312605310683
20
39.82159959910701
30
0
10
21.882145186320368
20
38.763416706857932
30
0
10
20.874729587037045
20
37.919128476281266
30
0
10
19.66852347237943
20
37.730324896075395
30
0
10
19.497282139803918
20
37.703521038694305
30
0
10
19.319590416281326
20
37.68992860830118
30
0
10
19.150141928647397
20
37.68992860830118
30
0
0
LINE
5
116
100
AcDbEntity
8
0
100
AcDbLine
10
19.150141928647393
20
37.68992860830118
30
0
11
-19.154155921329842
21
37.689928608301187
31
-3.4352482402696644e-42
0
SPLINE
5
117
100
AcDbEntity
8
0
100
AcDbSpline
70
0
71
3
72
11
73
7
74
0
42
0.000000001
43
0.0000000001
44
0.0000000001
40
0
40
0
40
0
40
0
40
0.93360759900336676
40
0.93360759900336676
40
0.93360759900336676
40
1.5707963267948968
40
1.5707963267948968
40
1.5707963267948968
40
1.5707963267948968
10
-19.154155921329835
20
37.68992860830118
30
0
10
-20.589289891308926
20
37.68992860830118
30
0
10
-21.919837032540382
20
38.710424830224468
30
0
10
-22.603115805051651
20
40.015915203709802
30
0
10
-23.069454695446481
20
40.906914539097833
30
0
10
-23.303155921329832
20
41.944491378146161
30
0
10
-23.303155921329836
20
42.982572254013292
30
0
0
LINE
5
118
100
AcDbEntity
8
0
100
AcDbLine
10
-23.303155921329836
20
42.982572254013292
30
0
11
-23.303155921329836
21
49.964928608301172
31
-2.6070786160922731e-59
0
ARC
5
119
100
AcDbEntity
8
0
100
AcDbCircle
10
-24.488155921329838
20
49.964928608301165
30
0
40
1.1850000000000005
210
2.2000663426934113e-59
220
6.5227703091356682e-58
230
1
100
AcDbArc
50
0
51
90
0
LINE
5
120
100
AcDbEntity
8
0
100
AcDbLine
10
-24.488155921329838
20
51.149928608301167
30
-4.4245638625592902e-60
11
-42.497538162571757
21
51.149928608301167
31
-1.6151372593978198e-42
0
ARC
5
121
100
AcDbEntity
8
0
100
AcDbCircle
10
-42.497538162571743
20
47.759928608301166
30
0
40
3.3899999999999952
210
-8.9683101716790802e-44
220
4.7644166943888511e-43
230
1
100
AcDbArc
50
90.000000000000242
51
180
0
LINE
5
122
100
AcDbEntity
8
0
100
AcDbLine
10
-45.887538162571744
20
47.759928608301166
30
-3.0402571481991232e-43
11
-45.887538162571708
21
-50.65702018487687
31
3.6747010556425671e-58
0
ARC
5
123
100
AcDbEntity
8
0
100
AcDbCircle
10
-42.497538162571715
20
-50.657020184876856
30
0
40
3.3899999999999952
210
1.0839826122839391e-58
220
2.1505565953746039e-58
230
1
100
AcDbArc
50
180
51
270
0
LINE
5
124
100
AcDbEntity
8
0
100
AcDbLine
10
-42.497538162571715
20
-54.047020184876864
30
1.2657613075169635e-59
11
42.493524169889326
21
-54.047020184876843
31
-4.3191004701734112e-59
0
ENDSEC
0
SECTION
2
OBJECTS
0
DICTIONARY
5
C
100
AcDbDictionary
3
ACAD_GROUP
350
D
3
ACAD_MLINESTYLE
350
17
0
DICTIONARY
5
D
100
AcDbDictionary
0
DICTIONARY
5
1A
330
C
100
AcDbDictionary
0
DICTIONARY
5
17
100
AcDbDictionary
0
ENDSEC
0
EOF
